ISO-10303-21;
HEADER;
FILE_DESCRIPTION (( 'STEP AP203' ),
    '1' );
FILE_NAME ('QB-CTZQWP-50.8-780-M.STEP',
    '2020-12-24T01:52:59',
    ( '' ),
    ( '' ),
    'SwSTEP 2.0',
    'SolidWorks 2020',
    '' );
FILE_SCHEMA (( 'CONFIG_CONTROL_DESIGN' ));
ENDSEC;

DATA;
#1 = ORIENTED_EDGE ( 'NONE', *, *, #139, .T. ) ;
#2 = EDGE_CURVE ( 'NONE', #53, #109, #89, .T. ) ;
#3 = EDGE_LOOP ( 'NONE', ( #52, #95 ) ) ;
#4 = APPROVAL_ROLE ( '' ) ;
#5 = AXIS2_PLACEMENT_3D ( 'NONE', #94, #173, #77 ) ;
#6 = DATE_TIME_ROLE ( 'creation_date' ) ;
#7 = MANIFOLD_SOLID_BREP ( 'Ðý×', #60 ) ;
#8 = APPROVAL_STATUS ( 'not_yet_approved' ) ;
#9 = CC_DESIGN_SECURITY_CLASSIFICATION ( #171, ( #46 ) ) ;
#10 = CC_DESIGN_APPROVAL ( #140, ( #171 ) ) ;
#11 = AXIS2_PLACEMENT_3D ( 'NONE', #142, #19, #99 ) ;
#12 = APPROVAL_DATE_TIME ( #23, #140 ) ;
#13 = DIRECTION ( 'NONE',  ( -1.000000000000000000, -0.000000000000000000, -0.000000000000000000 ) ) ;
#14 = AXIS2_PLACEMENT_3D ( 'NONE', #25, #147, #79 ) ;
#15 = ADVANCED_FACE ( 'NONE', ( #91 ), #106, .F. ) ;
#16 =( LENGTH_UNIT ( ) NAMED_UNIT ( * ) SI_UNIT ( .MILLI., .METRE. ) );
#17 = DIRECTION ( 'NONE',  ( -1.000000000000000000, -0.000000000000000000, -0.000000000000000000 ) ) ;
#18 = CC_DESIGN_DATE_AND_TIME_ASSIGNMENT ( #128, #6, ( #130 ) ) ;
#19 = DIRECTION ( 'NONE',  ( -1.000000000000000000, -0.000000000000000000, -0.000000000000000000 ) ) ;
#20 = APPLICATION_PROTOCOL_DEFINITION ( 'international standard', 'config_control_design', 1994, #133 ) ;
#21 = AXIS2_PLACEMENT_3D ( 'NONE', #114, #71, #85 ) ;
#22 = ADVANCED_FACE ( 'NONE', ( #48 ), #33, .F. ) ;
#23 = DATE_AND_TIME ( #105, #34 ) ;
#24 = CARTESIAN_POINT ( 'NONE',  ( -3.000000000000002665, 0.000000000000000000, 25.39999999999999858 ) ) ;
#25 = CARTESIAN_POINT ( 'NONE',  ( -3.000000000000002665, 0.000000000000000000, 0.000000000000000000 ) ) ;
#26 = SECURITY_CLASSIFICATION_LEVEL ( 'unclassified' ) ;
#27 = EDGE_LOOP ( 'NONE', ( #80, #125, #155, #82 ) ) ;
#28 = VERTEX_POINT ( 'NONE', #150 ) ;
#29 = CYLINDRICAL_SURFACE ( 'NONE', #59, 25.39999999999999858 ) ;
#30 = CARTESIAN_POINT ( 'NONE',  ( 0.000000000000000000, 0.000000000000000000, 0.000000000000000000 ) ) ;
#31 = APPROVAL ( #8, 'UNSPECIFIED' ) ;
#32 = APPROVAL_ROLE ( '' ) ;
#33 = PLANE ( 'NONE',  #5 ) ;
#34 = LOCAL_TIME ( 9, 52, 59.00000000000000000, #107 ) ;
#35 = PERSON_AND_ORGANIZATION_ROLE ( 'design_supplier' ) ;
#36 = DIRECTION ( 'NONE',  ( 0.000000000000000000, 0.000000000000000000, 1.000000000000000000 ) ) ;
#37 = ORIENTED_EDGE ( 'NONE', *, *, #41, .T. ) ;
#38 = LINE ( 'NONE', #126, #144 ) ;
#39 = CC_DESIGN_PERSON_AND_ORGANIZATION_ASSIGNMENT ( #145, #102, ( #153 ) ) ;
#40 = DIRECTION ( 'NONE',  ( 0.000000000000000000, 0.000000000000000000, 1.000000000000000000 ) ) ;
#41 = EDGE_CURVE ( 'NONE', #68, #28, #81, .T. ) ;
#42 = PERSON_AND_ORGANIZATION ( #113, #44 ) ;
#43 = DIRECTION ( 'NONE',  ( 1.000000000000000000, 0.000000000000000000, 0.000000000000000000 ) ) ;
#44 = ORGANIZATION ( 'UNSPECIFIED', 'UNSPECIFIED', '' ) ;
#45 = EDGE_CURVE ( 'NONE', #109, #28, #137, .T. ) ;
#46 = PRODUCT_DEFINITION_FORMATION_WITH_SPECIFIED_SOURCE ( 'ANY', '', #153, .NOT_KNOWN. ) ;
#47 = COORDINATED_UNIVERSAL_TIME_OFFSET ( 8, 0, .AHEAD. ) ;
#48 = FACE_OUTER_BOUND ( 'NONE', #3, .T. ) ;
#49 = PRODUCT_DEFINITION_SHAPE ( 'NONE', 'NONE',  #130 ) ;
#50 = PERSON_AND_ORGANIZATION ( #113, #44 ) ;
#51 = VECTOR ( 'NONE', #123, 1000.000000000000000 ) ;
#52 = ORIENTED_EDGE ( 'NONE', *, *, #2, .F. ) ;
#53 = VERTEX_POINT ( 'NONE', #175 ) ;
#54 = DIRECTION ( 'NONE',  ( -1.000000000000000000, -0.000000000000000000, -0.000000000000000000 ) ) ;
#55 = ADVANCED_BREP_SHAPE_REPRESENTATION ( 'QB-CTZQWP-50.8-780-M', ( #7, #148 ), #160 ) ;
#56 = CARTESIAN_POINT ( 'NONE',  ( 3.000000000000002665, 3.110602869834276865E-15, -25.39999999999999858 ) ) ;
#57 = COORDINATED_UNIVERSAL_TIME_OFFSET ( 8, 0, .AHEAD. ) ;
#58 = APPROVAL_DATE_TIME ( #129, #31 ) ;
#59 = AXIS2_PLACEMENT_3D ( 'NONE', #141, #83, #111 ) ;
#60 = CLOSED_SHELL ( 'NONE', ( #104, #74, #22, #15 ) ) ;
#61 = PERSON_AND_ORGANIZATION_ROLE ( 'creator' ) ;
#62 = DIRECTION ( 'NONE',  ( 0.000000000000000000, 0.000000000000000000, -1.000000000000000000 ) ) ;
#63 = PERSON_AND_ORGANIZATION ( #113, #44 ) ;
#64 = CARTESIAN_POINT ( 'NONE',  ( -3.000000000000000000, 3.110602869834276865E-15, -25.39999999999999858 ) ) ;
#65 = PRODUCT_RELATED_PRODUCT_CATEGORY ( 'detail', '', ( #153 ) ) ;
#66 = AXIS2_PLACEMENT_3D ( 'NONE', #121, #163, #62 ) ;
#67 = ORIENTED_EDGE ( 'NONE', *, *, #158, .F. ) ;
#68 = VERTEX_POINT ( 'NONE', #24 ) ;
#69 = DESIGN_CONTEXT ( 'detailed design', #76, 'design' ) ;
#70 = CARTESIAN_POINT ( 'NONE',  ( -3.000000000000002665, 0.000000000000000000, 0.000000000000000000 ) ) ;
#71 = DIRECTION ( 'NONE',  ( -1.000000000000000000, -0.000000000000000000, -0.000000000000000000 ) ) ;
#72 = APPLICATION_PROTOCOL_DEFINITION ( 'international standard', 'config_control_design', 1994, #76 ) ;
#73 = LOCAL_TIME ( 9, 52, 59.00000000000000000, #57 ) ;
#74 = ADVANCED_FACE ( 'NONE', ( #108 ), #127, .T. ) ;
#75 = PERSON_AND_ORGANIZATION ( #113, #44 ) ;
#76 = APPLICATION_CONTEXT ( 'configuration controlled 3d designs of mechanical parts and assemblies' ) ;
#77 = DIRECTION ( 'NONE',  ( -0.000000000000000000, 0.000000000000000000, 1.000000000000000000 ) ) ;
#78 = AXIS2_PLACEMENT_3D ( 'NONE', #165, #13, #36 ) ;
#79 = DIRECTION ( 'NONE',  ( 0.000000000000000000, 0.000000000000000000, 1.000000000000000000 ) ) ;
#80 = ORIENTED_EDGE ( 'NONE', *, *, #2, .T. ) ;
#81 = CIRCLE ( 'NONE', #14, 25.39999999999999858 ) ;
#82 = ORIENTED_EDGE ( 'NONE', *, *, #139, .F. ) ;
#83 = DIRECTION ( 'NONE',  ( -1.000000000000000000, -0.000000000000000000, -0.000000000000000000 ) ) ;
#84 = LOCAL_TIME ( 9, 52, 59.00000000000000000, #47 ) ;
#85 = DIRECTION ( 'NONE',  ( 0.000000000000000000, 0.000000000000000000, 1.000000000000000000 ) ) ;
#86 = CALENDAR_DATE ( 2020, 24, 12 ) ;
#87 = AXIS2_PLACEMENT_3D ( 'NONE', #70, #17, #40 ) ;
#88 = LOCAL_TIME ( 9, 52, 59.00000000000000000, #117 ) ;
#89 = CIRCLE ( 'NONE', #78, 25.39999999999999858 ) ;
#90 = EDGE_CURVE ( 'NONE', #109, #53, #118, .T. ) ;
#91 = FACE_OUTER_BOUND ( 'NONE', #134, .T. ) ;
#92 = PERSON_AND_ORGANIZATION ( #113, #44 ) ;
#93 = CALENDAR_DATE ( 2020, 24, 12 ) ;
#94 = CARTESIAN_POINT ( 'NONE',  ( 3.000000000000001332, 25.39999999999999858, 0.000000000000000000 ) ) ;
#95 = ORIENTED_EDGE ( 'NONE', *, *, #90, .F. ) ;
#96 = APPROVAL_PERSON_ORGANIZATION ( #42, #152, #4 ) ;
#97 = APPROVAL_STATUS ( 'not_yet_approved' ) ;
#98 =( NAMED_UNIT ( * ) PLANE_ANGLE_UNIT ( ) SI_UNIT ( $, .RADIAN. ) );
#99 = DIRECTION ( 'NONE',  ( 0.000000000000000000, 0.000000000000000000, 1.000000000000000000 ) ) ;
#100 = CC_DESIGN_PERSON_AND_ORGANIZATION_ASSIGNMENT ( #63, #35, ( #46 ) ) ;
#101 = APPROVAL_ROLE ( '' ) ;
#102 = PERSON_AND_ORGANIZATION_ROLE ( 'design_owner' ) ;
#103 = PERSON_AND_ORGANIZATION_ROLE ( 'creator' ) ;
#104 = ADVANCED_FACE ( 'NONE', ( #159 ), #29, .T. ) ;
#105 = CALENDAR_DATE ( 2020, 24, 12 ) ;
#106 = PLANE ( 'NONE',  #66 ) ;
#107 = COORDINATED_UNIVERSAL_TIME_OFFSET ( 8, 0, .AHEAD. ) ;
#108 = FACE_OUTER_BOUND ( 'NONE', #124, .T. ) ;
#109 = VERTEX_POINT ( 'NONE', #56 ) ;
#110 = ORIENTED_EDGE ( 'NONE', *, *, #90, .T. ) ;
#111 = DIRECTION ( 'NONE',  ( 0.000000000000000000, 0.000000000000000000, 1.000000000000000000 ) ) ;
#112 =( NAMED_UNIT ( * ) SI_UNIT ( $, .STERADIAN. ) SOLID_ANGLE_UNIT ( ) );
#113 = PERSON ( 'UNSPECIFIED', 'UNSPECIFIED', 'UNSPECIFIED', ('UNSPECIFIED'), ('UNSPECIFIED'), ('UNSPECIFIED') ) ;
#114 = CARTESIAN_POINT ( 'NONE',  ( -3.000000000000000000, 0.000000000000000000, 0.000000000000000000 ) ) ;
#115 = CC_DESIGN_APPROVAL ( #31, ( #130 ) ) ;
#116 = DIRECTION ( 'NONE',  ( 0.000000000000000000, 0.000000000000000000, 1.000000000000000000 ) ) ;
#117 = COORDINATED_UNIVERSAL_TIME_OFFSET ( 8, 0, .AHEAD. ) ;
#118 = CIRCLE ( 'NONE', #11, 25.39999999999999858 ) ;
#119 = LOCAL_TIME ( 9, 52, 59.00000000000000000, #157 ) ;
#120 = APPROVAL_DATE_TIME ( #122, #152 ) ;
#121 = CARTESIAN_POINT ( 'NONE',  ( -3.000000000000001332, 25.39999999999999858, 0.000000000000000000 ) ) ;
#122 = DATE_AND_TIME ( #93, #119 ) ;
#123 = DIRECTION ( 'NONE',  ( -1.000000000000000000, -0.000000000000000000, -0.000000000000000000 ) ) ;
#124 = EDGE_LOOP ( 'NONE', ( #154, #110, #1, #67 ) ) ;
#125 = ORIENTED_EDGE ( 'NONE', *, *, #45, .T. ) ;
#126 = CARTESIAN_POINT ( 'NONE',  ( -3.000000000000000000, 0.000000000000000000, 25.39999999999999858 ) ) ;
#127 = CYLINDRICAL_SURFACE ( 'NONE', #21, 25.39999999999999858 ) ;
#128 = DATE_AND_TIME ( #143, #73 ) ;
#129 = DATE_AND_TIME ( #86, #88 ) ;
#130 = PRODUCT_DEFINITION ( 'UNKNOWN', '', #46, #69 ) ;
#131 = CC_DESIGN_PERSON_AND_ORGANIZATION_ASSIGNMENT ( #132, #61, ( #46 ) ) ;
#132 = PERSON_AND_ORGANIZATION ( #113, #44 ) ;
#133 = APPLICATION_CONTEXT ( 'configuration controlled 3d designs of mechanical parts and assemblies' ) ;
#134 = EDGE_LOOP ( 'NONE', ( #37, #138 ) ) ;
#135 = UNCERTAINTY_MEASURE_WITH_UNIT (LENGTH_MEASURE( 1.000000000000000082E-05 ), #16, 'distance_accuracy_value', 'NONE');
#136 = DATE_TIME_ROLE ( 'classification_date' ) ;
#137 = LINE ( 'NONE', #64, #51 ) ;
#138 = ORIENTED_EDGE ( 'NONE', *, *, #158, .T. ) ;
#139 = EDGE_CURVE ( 'NONE', #53, #68, #38, .T. ) ;
#140 = APPROVAL ( #151, 'UNSPECIFIED' ) ;
#141 = CARTESIAN_POINT ( 'NONE',  ( -3.000000000000000000, 0.000000000000000000, 0.000000000000000000 ) ) ;
#142 = CARTESIAN_POINT ( 'NONE',  ( 3.000000000000002665, 0.000000000000000000, 0.000000000000000000 ) ) ;
#143 = CALENDAR_DATE ( 2020, 24, 12 ) ;
#144 = VECTOR ( 'NONE', #54, 1000.000000000000000 ) ;
#145 = PERSON_AND_ORGANIZATION ( #113, #44 ) ;
#146 = CC_DESIGN_PERSON_AND_ORGANIZATION_ASSIGNMENT ( #92, #162, ( #171 ) ) ;
#147 = DIRECTION ( 'NONE',  ( -1.000000000000000000, -0.000000000000000000, -0.000000000000000000 ) ) ;
#148 = AXIS2_PLACEMENT_3D ( 'NONE', #30, #116, #43 ) ;
#149 = DATE_AND_TIME ( #174, #84 ) ;
#150 = CARTESIAN_POINT ( 'NONE',  ( -3.000000000000002665, 3.110602869834276865E-15, -25.39999999999999858 ) ) ;
#151 = APPROVAL_STATUS ( 'not_yet_approved' ) ;
#152 = APPROVAL ( #97, 'UNSPECIFIED' ) ;
#153 = PRODUCT ( 'QB-CTZQWP-50.8-780-M', 'QB-CTZQWP-50.8-780-M', '', ( #169 ) ) ;
#154 = ORIENTED_EDGE ( 'NONE', *, *, #45, .F. ) ;
#155 = ORIENTED_EDGE ( 'NONE', *, *, #41, .F. ) ;
#156 = APPROVAL_PERSON_ORGANIZATION ( #50, #140, #32 ) ;
#157 = COORDINATED_UNIVERSAL_TIME_OFFSET ( 8, 0, .AHEAD. ) ;
#158 = EDGE_CURVE ( 'NONE', #28, #68, #167, .T. ) ;
#159 = FACE_OUTER_BOUND ( 'NONE', #27, .T. ) ;
#160 =( GEOMETRIC_REPRESENTATION_CONTEXT ( 3 ) GLOBAL_UNCERTAINTY_ASSIGNED_CONTEXT ( ( #135 ) ) GLOBAL_UNIT_ASSIGNED_CONTEXT ( ( #16, #98, #112 ) ) REPRESENTATION_CONTEXT ( 'NONE', 'WORKASPACE' ) );
#161 = CC_DESIGN_APPROVAL ( #152, ( #46 ) ) ;
#162 = PERSON_AND_ORGANIZATION_ROLE ( 'classification_officer' ) ;
#163 = DIRECTION ( 'NONE',  ( 1.000000000000000000, 0.000000000000000000, 0.000000000000000000 ) ) ;
#164 = APPROVAL_PERSON_ORGANIZATION ( #75, #31, #101 ) ;
#165 = CARTESIAN_POINT ( 'NONE',  ( 3.000000000000002665, 0.000000000000000000, 0.000000000000000000 ) ) ;
#166 = CC_DESIGN_DATE_AND_TIME_ASSIGNMENT ( #149, #136, ( #171 ) ) ;
#167 = CIRCLE ( 'NONE', #87, 25.39999999999999858 ) ;
#168 = CC_DESIGN_PERSON_AND_ORGANIZATION_ASSIGNMENT ( #170, #103, ( #130 ) ) ;
#169 = MECHANICAL_CONTEXT ( 'NONE', #133, 'mechanical' ) ;
#170 = PERSON_AND_ORGANIZATION ( #113, #44 ) ;
#171 = SECURITY_CLASSIFICATION ( '', '', #26 ) ;
#172 = SHAPE_DEFINITION_REPRESENTATION ( #49, #55 ) ;
#173 = DIRECTION ( 'NONE',  ( -1.000000000000000000, 0.000000000000000000, -0.000000000000000000 ) ) ;
#174 = CALENDAR_DATE ( 2020, 24, 12 ) ;
#175 = CARTESIAN_POINT ( 'NONE',  ( 3.000000000000002665, 0.000000000000000000, 25.39999999999999858 ) ) ;
ENDSEC;
END-ISO-10303-21;
